0
SECTION
2
HEADER
9
$INSUNITS
70
4
9
$ACADVER
1
AC1014
9
$HANDSEED
5
FFFF
0
ENDSEC
0
SECTION
2
TABLES
0
TABLE
2
VPORT
5
8
100
AcDbSymbolTable
0
ENDTAB
0
TABLE
2
LTYPE
5
5
100
AcDbSymbolTable
0
LTYPE
5
14
100
AcDbSymbolTableRecord
100
AcDbLinetypeTableRecord
2
BYBLOCK
70
0
0
LTYPE
5
15
100
AcDbSymbolTableRecord
100
AcDbLinetypeTableRecord
2
BYLAYER
70
0
0
ENDTAB
0
TABLE
2
LAYER
5
2
100
AcDbSymbolTable
70
2
0
LAYER
5
50
100
AcDbSymbolTableRecord
100
AcDbLayerTableRecord
2
0
70
0
6
CONTINUOUS
0
ENDTAB
0
TABLE
2
STYLE
5
3
100
AcDbSymbolTable
70
1
0
STYLE
5
11
100
AcDbSymbolTableRecord
100
AcDbTextStyleTableRecord
2
STANDARD
70
0
0
ENDTAB
0
TABLE
2
VIEW
5
6
100
AcDbSymbolTable
70
0
0
ENDTAB
0
TABLE
2
UCS
5
7
100
AcDbSymbolTable
70
0
0
ENDTAB
0
TABLE
2
APPID
5
9
100
AcDbSymbolTable
70
2
0
APPID
5
12
100
AcDbSymbolTableRecord
100
AcDbRegAppTableRecord
2
ACAD
70
0
0
ENDTAB
0
TABLE
2
DIMSTYLE
5
A
100
AcDbSymbolTable
70
1
0
ENDTAB
0
TABLE
2
BLOCK_RECORD
5
1
100
AcDbSymbolTable
70
1
0
BLOCK_RECORD
5
1F
100
AcDbSymbolTableRecord
100
AcDbBlockTableRecord
2
*MODEL_SPACE
0
BLOCK_RECORD
5
1B
100
AcDbSymbolTableRecord
100
AcDbBlockTableRecord
2
*PAPER_SPACE
0
ENDTAB
0
ENDSEC
0
SECTION
2
BLOCKS
0
BLOCK
5
20
100
AcDbEntity
100
AcDbBlockBegin
2
*MODEL_SPACE
0
ENDBLK
5
21
100
AcDbEntity
100
AcDbBlockEnd
0
BLOCK
5
1C
100
AcDbEntity
100
AcDbBlockBegin
2
*PAPER_SPACE
0
ENDBLK
5
1D
100
AcDbEntity
100
AcDbBlockEnd
0
ENDSEC
0
SECTION
2
ENTITIES
0
CIRCLE
5
100
100
AcDbEntity
8
0
100
AcDbCircle
10
-72.609298987280781
20
-54.121203478624139
30
0
40
1.6959680561173227
210
0
220
0
230
1
0
LWPOLYLINE
5
101
100
AcDbEntity
8
0
100
AcDbPolyline
90
6
70
1
43
0.0
10
-36.915171885514795
20
-58.067226983821385
10
-38.900786794849864
20
-54.628041076586804
10
-36.915171885514823
20
-51.188855169352209
10
-32.943942066844713
20
-51.188855169352188
10
-30.95832715750964
20
-54.628041076586769
10
-32.94394206684467
20
-58.067226983821371
0
SPLINE
5
102
100
AcDbEntity
8
0
100
AcDbSpline
70
4
71
5
72
13
73
7
74
0
42
0.000000001
43
0.0000000001
44
0.0000000001
40
0
40
0
40
0
40
0
40
0
40
0
40
0.10000000000000001
40
0.16645254479150801
40
0.16645254479150801
40
0.16645254479150801
40
0.16645254479150801
40
0.16645254479150801
40
0.16645254479150801
41
1
41
1
41
1
41
1
41
1
41
1
41
1
10
-29.27253694212051
20
-9.7944601960003439
30
0
10
-28.833549191403897
20
-9.943103658073289
30
0
10
-28.135169900286705
20
-10.188229634857898
30
0
10
-27.490597936022869
20
-10.429535903758795
30
0
10
-26.900576422395325
20
-10.666969711443848
30
0
10
-26.366947315778578
20
-10.900400299971389
30
0
10
-26.163034017445934
20
-10.992944490833541
30
0
0
ARC
5
103
100
AcDbEntity
8
0
100
AcDbCircle
10
-42.079413349270006
20
-12.026928939789991
30
0
40
13.000000000000007
210
0
220
-0
230
1
100
AcDbArc
50
9.8883250671651179
51
27.542396876277841
0
ARC
5
104
100
AcDbEntity
8
0
100
AcDbCircle
10
-28.779379661506511
20
-5.0908562827054276
30
0
40
1.9999999999999982
210
0
220
0
230
1
100
AcDbArc
50
134.99999999999994
51
207.54239687627816
0
LINE
5
105
100
AcDbEntity
8
0
100
AcDbLine
10
-30.193593223879603
20
-3.6766427203323322
30
0
11
-29.486135562928091
21
-2.9691850593808145
31
0
0
ARC
5
106
100
AcDbEntity
8
0
100
AcDbCircle
10
-28.071922000554984
20
-4.3833986217539156
30
0
40
2.0000000000000044
210
0
220
-0
230
1
100
AcDbArc
50
88.813061460403276
51
135.00000000000011
0
ARC
5
107
100
AcDbEntity
8
0
100
AcDbCircle
10
-27.937277725539044
20
2.1152066839409533
30
0
40
4.5000000000000009
210
0
220
0
230
1
100
AcDbArc
50
268.81306146040305
51
314.99999999999994
0
LINE
5
108
100
AcDbEntity
8
0
100
AcDbLine
10
-24.755297210199583
20
-1.0667738313985136
30
0
11
-24.035568886228688
21
-0.34704550742761242
31
0
0
ARC
5
109
100
AcDbEntity
8
0
100
AcDbCircle
10
-22.621355323855596
20
-1.761259069800706
30
0
40
1.9999999999999987
210
0
220
-0
230
1
100
AcDbArc
50
27.815204098912421
51
134.99999999999997
0
ARC
5
110
100
AcDbEntity
8
0
100
AcDbCircle
10
-42.079413349270006
20
-12.026928939789991
30
0
40
24.000000000000014
210
-0
220
0
230
1
100
AcDbArc
50
-27.815204098912368
51
27.815204098912435
0
ARC
5
111
100
AcDbEntity
8
0
100
AcDbCircle
10
-22.621355323855589
20
-22.292598809779292
30
0
40
1.999999999999996
210
0
220
0
230
1
100
AcDbArc
50
224.99999999999972
51
332.18479590108819
0
LINE
5
112
100
AcDbEntity
8
0
100
AcDbLine
10
-24.035568886228688
20
-23.706812372152378
30
0
11
-24.755297210199583
21
-22.987084048181483
31
0
0
ARC
5
113
100
AcDbEntity
8
0
100
AcDbCircle
10
-27.93727772553904
20
-26.169064563520948
30
0
40
4.4999999999999973
210
0
220
-0
230
1
100
AcDbArc
50
45.000000000000064
51
91.186938539596881
0
ARC
5
114
100
AcDbEntity
8
0
100
AcDbCircle
10
-28.07192200055497
20
-19.670459257826067
30
0
40
2.0000000000000213
210
0
220
0
230
1
100
AcDbArc
50
225.00000000000014
51
271.18693853959667
0
LINE
5
115
100
AcDbEntity
8
0
100
AcDbLine
10
-29.486135562928077
20
-21.084672820199181
30
0
11
-30.193593223879596
21
-20.377215159247658
31
0
0
ARC
5
116
100
AcDbEntity
8
0
100
AcDbCircle
10
-28.7793796615065
20
-18.963001596874559
30
0
40
2.0000000000000044
210
0
220
0
230
1
100
AcDbArc
50
152.45760312372235
51
225.00000000000006
0
ARC
5
117
100
AcDbEntity
8
0
100
AcDbCircle
10
-42.079413349270006
20
-12.026928939789991
30
0
40
13.000000000000009
210
-0
220
0
230
1
100
AcDbArc
50
332.45760312372209
51
343.83718746954077
0
SPLINE
5
118
100
AcDbEntity
8
0
100
AcDbSpline
70
4
71
5
72
13
73
7
74
0
42
0.000000001
43
0.0000000001
44
0.0000000001
40
0.84433173897025804
40
0.84433173897025804
40
0.84433173897025804
40
0.84433173897025804
40
0.84433173897025804
40
0.84433173897025804
40
0.89999999999999991
40
1
40
1
40
1
40
1
40
1
40
1
41
1
41
1
41
1
41
1
41
1
41
1
41
1
10
-26.547085034740256
20
-14.947554722703359
30
0
10
-26.730161858929083
20
-14.999957606894299
30
0
10
-27.259973158806943
20
-15.145226616508401
30
0
10
-27.83913282064028
20
-15.286992454000909
30
0
10
-28.46619030378082
20
-15.425358091250839
30
0
10
-29.140535578055136
20
-15.56036683345841
30
0
10
-29.593244058326917
20
-15.645710010524967
30
0
0
LWPOLYLINE
5
119
100
AcDbEntity
8
0
100
AcDbPolyline
90
6
70
1
43
0.0
10
-45.044199525163783
20
-54.811321296956869
10
-46.979809756011448
20
-58.163896560435198
10
-50.851030217706821
20
-58.163896560435226
10
-52.786640448554543
20
-54.811321296956919
10
-50.851030217706864
20
-51.458746033478576
10
-46.979809756011491
20
-51.458746033478555
0
CIRCLE
5
120
100
AcDbEntity
8
0
100
AcDbCircle
10
-42.122610811672921
20
39.97307106021001
30
0
40
1.6959680561173227
210
0
220
0
230
1
0
CIRCLE
5
121
100
AcDbEntity
8
0
100
AcDbCircle
10
-56.221548973000957
20
-26.169064563520955
30
0
40
1.6209999999999969
210
0
220
0
230
1
0
LWPOLYLINE
5
122
100
AcDbEntity
8
0
100
AcDbPolyline
90
6
70
1
43
0.0
10
-27.790106699273203
20
-35.784740012259462
10
-23.573745998011848
20
-32.794151625586821
10
-18.875640132259921
20
-34.950332911061217
10
-18.393894967769384
20
-40.09710258320824
10
-22.610255669030739
20
-43.087690969880882
10
-27.308361534782641
20
-40.9315096844065
0
LWPOLYLINE
5
123
100
AcDbEntity
8
0
100
AcDbPolyline
90
6
70
1
43
0.0
10
-19.027191548994722
20
-51.276342837021858
10
-23.072276520869384
20
-54.215269098484214
10
-27.640003809082359
20
-52.181585883105235
10
-28.162646125420618
20
-47.208976406263943
10
-24.117561153545939
20
-44.270050144801594
10
-19.549833865333017
20
-46.303733360180559
0
LWPOLYLINE
5
124
100
AcDbEntity
8
0
100
AcDbPolyline
90
6
70
1
43
0.0
10
-7.7009533384183193
20
-43.04734909471884
10
-11.746038310293017
20
-45.98627535618121
10
-16.313765598506009
20
-43.952592140802203
10
-16.836407914844269
20
-38.979982663960882
10
-12.791322942969554
20
-36.041056402498512
10
-8.2235956547565969
20
-38.074739617877505
0
LWPOLYLINE
5
125
100
AcDbEntity
8
0
100
AcDbPolyline
90
6
70
1
43
0.0
10
-16.554630456439263
20
-22.848358132214202
10
-14.901346744067476
20
-17.950606665668715
10
-9.8331276964306724
20
-16.933516626972967
10
-6.4181923611656622
20
-20.81417805482274
10
-8.0714760735374647
20
-25.711929521368234
10
-13.139695121174251
20
-26.729019560063971
0
LWPOLYLINE
5
126
100
AcDbEntity
8
0
100
AcDbPolyline
90
6
70
1
43
0.0
10
-0.35954750483051967
20
-30.23061579512995
10
-1.9046324767052081
20
-34.985898376605675
10
-6.795370480374201
20
-36.025456830694466
10
-10.141023512168434
20
-32.30973270330756
10
-8.5959385402937372
20
-27.554450121831824
10
-3.7052005366247887
20
-26.514891667743044
0
LWPOLYLINE
5
127
100
AcDbEntity
8
0
100
AcDbPolyline
90
6
70
1
43
0.0
10
3.9666905269319308
20
-16.915824226873404
10
2.4216055550572069
20
-21.671106808349158
10
-2.4691324486117949
20
-22.710665262437946
10
-5.8147854804060639
20
-18.994941135051022
10
-4.2697005085313489
20
-14.239658553575252
10
0.62103749513763518
20
-13.200100099486471
0
LWPOLYLINE
5
128
100
AcDbEntity
8
0
100
AcDbPolyline
90
6
70
1
43
0.0
10
-15.068753723204802
20
-5.7785581075132164
10
-16.610045184801994
20
-0.84441815286561805
10
-13.107600369047949
20
2.9574493848374317
10
-8.0638640916967042
20
1.8251769678928476
10
-6.5225726300995124
20
-3.1089629867547774
10
-10.025017445853557
20
-6.9108305244578005
0
LWPOLYLINE
5
129
100
AcDbEntity
8
0
100
AcDbPolyline
90
6
70
1
43
0.0
10
2.3725257928436339
20
-2.2316990950578663
10
3.9176107647183755
20
-6.9869816765335635
10
0.57195773292411545
20
-10.702705803920516
10
-4.3187802707448331
20
-9.6631473498317355
10
-5.8638652426195836
20
-4.9078647683560206
10
-2.5182122108253502
20
-1.1921406409691038
0
LWPOLYLINE
5
130
100
AcDbEntity
8
0
100
AcDbPolyline
90
6
70
1
43
0.0
10
-1.9537122389186923
20
11.083092473198715
10
-0.40862726704395058
20
6.3278098917229819
10
-3.7542802988382284
20
2.6120857643360296
10
-8.6450183025072214
20
3.651644218424801
10
-10.190103274381972
20
8.4069267999005515
10
-6.844450242587703
20
12.122650927287495
0
LWPOLYLINE
5
131
100
AcDbEntity
8
0
100
AcDbPolyline
90
6
70
1
43
0.0
10
-23.900030908572738
20
8.9045766335715015
10
-28.047176592378786
20
11.990431318894714
10
-27.44832088440468
20
17.124892176927364
10
-22.702319492624508
20
19.173498349636795
10
-18.555173808818452
20
16.087643664313571
10
-19.154029516792566
20
10.953182806280939
0
LWPOLYLINE
5
132
100
AcDbEntity
8
0
100
AcDbPolyline
90
6
70
1
43
0.0
10
-11.8745307959278
20
22.025772731943896
10
-7.829445824053094
20
19.086846470481582
10
-8.3520881403913627
20
14.114236993640272
10
-12.919815428604284
20
12.080553778261294
10
-16.964900400478989
20
15.019480039723607
10
-16.44225808414074
20
19.992089516564899
0
LWPOLYLINE
5
133
100
AcDbEntity
8
0
100
AcDbPolyline
90
6
70
1
43
0.0
10
-23.200769006504132
20
30.254766474247017
10
-19.155684034629399
20
27.315840212784686
10
-19.678326350967676
20
22.34323073594333
10
-24.246053639180634
20
20.309547520564344
10
-28.291138611055366
20
23.248473782026686
10
-27.768496294717107
20
28.22108325886802
0
LWPOLYLINE
5
134
100
AcDbEntity
8
0
100
AcDbPolyline
90
6
70
1
43
0.0
10
-39.675214291803997
20
15.592587681339989
10
-44.844145502902407
20
15.651465491888441
10
-47.377621428797468
20
20.15733013638819
10
-44.74216614359409
20
24.604316970339468
10
-39.573234932495652
20
24.545439159791016
10
-37.039759006600612
20
20.039574515291285
0
LWPOLYLINE
5
135
100
AcDbEntity
8
0
100
AcDbPolyline
90
6
70
1
43
0.0
10
-37.658825893877221
20
33.276269929103677
10
-32.658825893877285
20
33.276269929103712
10
-30.1588258938773
20
28.94614291018156
10
-32.658825893877257
20
24.616015891259426
10
-37.658825893877207
20
24.616015891259408
10
-40.158825893877165
20
28.946142910181525
0
LWPOLYLINE
5
136
100
AcDbEntity
8
0
100
AcDbPolyline
90
6
70
1
43
0.0
10
-51.658826251505197
20
33.276269929103748
10
-46.658826251505218
20
33.276269929103762
10
-44.158826251505232
20
28.946142910181578
10
-46.658826251505204
20
24.616015891259426
10
-51.658826251505197
20
24.616015891259408
10
-54.158826251505168
20
28.946142910181578
0
LWPOLYLINE
5
137
100
AcDbEntity
8
0
100
AcDbPolyline
90
6
70
1
43
0.0
10
-56.368719999266816
20
11.730882132679472
10
-60.585080700528167
20
8.7402937460068486
10
-65.283186566280094
20
10.896475031481234
10
-65.764931730770627
20
16.043244703628261
10
-61.548571029509276
20
19.033833090300902
10
-56.850465163757377
20
16.877651804826517
0
LWPOLYLINE
5
138
100
AcDbEntity
8
0
100
AcDbPolyline
90
6
70
1
43
0.0
10
-65.131635149545289
20
27.222484957441875
10
-61.086550177670631
20
30.161411218904224
10
-56.518822889457653
20
28.127728003525245
10
-55.996180573119396
20
23.155118526683971
10
-60.041265544994076
20
20.216192265221604
10
-64.608992833206997
20
22.249875480600565
0
LWPOLYLINE
5
139
100
AcDbEntity
8
0
100
AcDbPolyline
90
6
70
1
43
0.0
10
-76.45787336012171
20
18.99349121513886
10
-72.412788388246994
20
21.932417476601227
10
-67.845061100034002
20
19.898734261222231
10
-67.322418783695753
20
14.926124784380903
10
-71.367503755570453
20
11.987198522918536
10
-75.935231043783432
20
14.020881738297515
0
LWPOLYLINE
5
140
100
AcDbEntity
8
0
100
AcDbPolyline
90
6
70
1
43
0.0
10
-67.604196242100755
20
-1.2054997473657814
10
-69.257479954472544
20
-6.1032512139112693
10
-74.325699002109346
20
-7.1203412526070142
10
-77.740634337374331
20
-3.2396798247572445
10
-76.087350625002557
20
1.6580716417882613
10
-71.019131577365769
20
2.6751616804839884
0
LWPOLYLINE
5
141
100
AcDbEntity
8
0
100
AcDbPolyline
90
6
70
1
43
0.0
10
-83.799279193709495
20
6.1767579155499686
10
-82.254194221834794
20
10.932040497025683
10
-77.363456218165808
20
11.971598951114482
10
-74.01780318637158
20
8.2558748237275648
10
-75.562888158246281
20
3.500592242251841
10
-80.453626161915224
20
2.4610337881630606
0
LWPOLYLINE
5
142
100
AcDbEntity
8
0
100
AcDbPolyline
90
6
70
1
43
0.0
10
-88.125517225471953
20
-7.138033652706568
10
-86.580432253597223
20
-2.3827510712308264
10
-81.689694249928223
20
-1.3431926171420372
10
-78.344041218133952
20
-5.0589167445289718
10
-79.889126190008668
20
-9.8141993260047311
10
-84.779864193677653
20
-10.853757780093511
0
LWPOLYLINE
5
143
100
AcDbEntity
8
0
100
AcDbPolyline
90
6
70
1
43
0.0
10
-69.090072975335218
20
-18.275299772066759
10
-67.548781513738021
20
-23.209439726714365
10
-71.051226329492067
20
-27.011307264417411
10
-76.09496260684331
20
-25.879034847472813
10
-77.636254068440508
20
-20.944894892825197
10
-74.133809252686461
20
-17.143027355122168
0
LWPOLYLINE
5
144
100
AcDbEntity
8
0
100
AcDbPolyline
90
6
70
1
43
0.0
10
-86.531352491383657
20
-21.822158784522109
10
-88.076437463258387
20
-17.066876203046402
10
-84.73078443146413
20
-13.351152075659458
10
-79.840046427795187
20
-14.390710529748233
10
-78.294961455920443
20
-19.145993111223948
10
-81.640614487714657
20
-22.861717238610861
0
LWPOLYLINE
5
145
100
AcDbEntity
8
0
100
AcDbPolyline
90
6
70
1
43
0.0
10
-82.205114459621328
20
-35.136950352778683
10
-83.750199431496071
20
-30.381667771302947
10
-80.404546399701786
20
-26.665943643915995
10
-75.5138083960328
20
-27.705502098004775
10
-73.968723424158057
20
-32.460784679480518
10
-77.314376455952328
20
-36.17650880686746
0
LWPOLYLINE
5
146
100
AcDbEntity
8
0
100
AcDbPolyline
90
6
70
1
43
0.0
10
-60.25879578996728
20
-32.958434513151495
10
-56.11165010616125
20
-36.044289198474701
10
-56.710505814135352
20
-41.178750056507354
10
-61.456507205915528
20
-43.227356229216781
10
-65.603652889721573
20
-40.141501543893561
10
-65.004797181747463
20
-35.007040685860929
0
CIRCLE
5
147
100
AcDbEntity
8
0
100
AcDbCircle
10
-91.54770094661437
20
4.0008715396015653
30
0
40
1.6959680561173227
210
0
220
0
230
1
0
LWPOLYLINE
5
148
100
AcDbEntity
8
0
100
AcDbPolyline
90
6
70
1
43
0.0
10
-72.284295902612229
20
-46.079630611523889
10
-76.32938087448693
20
-43.140704350061576
10
-75.806738558148666
20
-38.168094873220248
10
-71.239011269935745
20
-36.134411657841284
10
-67.193926298061029
20
-39.073337919303597
10
-67.716568614399279
20
-44.045947396144882
0
CIRCLE
5
149
100
AcDbEntity
8
0
100
AcDbCircle
10
-91.521003446621606
20
-28.136895875392966
30
0
40
1.6959680561173227
210
0
220
0
230
1
0
LWPOLYLINE
5
150
100
AcDbEntity
8
0
100
AcDbPolyline
90
6
70
1
43
0.0
10
-60.958057692035901
20
-54.308624353827
10
-65.003142663910609
20
-51.369698092364672
10
-64.480500347572359
20
-46.397088615523323
10
-59.912773059359388
20
-44.36340540014433
10
-55.867688087484659
20
-47.302331661606672
10
-56.390330403822929
20
-52.274941138448
0
CIRCLE
5
151
100
AcDbEntity
8
0
100
AcDbCircle
10
-72.67919394967646
20
30.016563936370385
30
0
40
1.6959680561173227
210
0
220
0
230
1
0
SPLINE
5
152
100
AcDbEntity
8
0
100
AcDbSpline
70
4
71
5
72
13
73
7
74
0
42
0.000000001
43
0.0000000001
44
0.0000000001
40
0
40
0
40
0
40
0
40
0
40
0
40
0.10000000000000001
40
0.16645254479150778
40
0.16645254479150778
40
0.16645254479150778
40
0.16645254479150778
40
0.16645254479150778
40
0.16645254479150778
41
1
41
1
41
1
41
1
41
1
41
1
41
1
10
-54.886289756419501
20
-14.259397683579632
30
0
10
-55.325277507136114
20
-14.110754221506685
30
0
10
-56.023656798253299
20
-13.865628244722071
30
0
10
-56.668228762517131
20
-13.624321975821172
30
0
10
-57.258250276144686
20
-13.386888168136117
30
0
10
-57.791879382761437
20
-13.153457579608583
30
0
10
-57.99579268109408
20
-13.060913388746428
30
0
0
ARC
5
153
100
AcDbEntity
8
0
100
AcDbCircle
10
-42.079413349270006
20
-12.026928939789991
30
0
40
12.999999999999998
210
0
220
0
230
1
100
AcDbArc
50
189.88832506716511
51
207.54239687627796
0
ARC
5
154
100
AcDbEntity
8
0
100
AcDbCircle
10
-55.379447037033501
20
-18.96300159687457
30
0
40
2.0000000000000102
210
0
220
0
230
1
100
AcDbArc
50
-45.00000000000005
51
27.542396876277788
0
LINE
5
155
100
AcDbEntity
8
0
100
AcDbLine
10
-53.965233474660401
20
-20.377215159247672
30
0
11
-54.672691135611913
21
-21.084672820199188
31
0
0
ARC
5
156
100
AcDbEntity
8
0
100
AcDbCircle
10
-56.08690469798502
20
-19.670459257826089
30
0
40
2.0000000000000022
210
0
220
0
230
1
100
AcDbArc
50
268.81306146040356
51
315.00000000000017
0
ARC
5
157
100
AcDbEntity
8
0
100
AcDbCircle
10
-56.221548973000957
20
-26.169064563520955
30
0
40
4.5000000000000009
210
0
220
-0
230
1
100
AcDbArc
50
88.813061460402963
51
135.00000000000009
0
LINE
5
158
100
AcDbEntity
8
0
100
AcDbLine
10
-59.403529488340425
20
-22.987084048181494
30
0
11
-60.123257812311309
21
-23.706812372152385
31
0
0
ARC
5
159
100
AcDbEntity
8
0
100
AcDbCircle
10
-61.537471374684401
20
-22.292598809779282
30
0
40
2.0000000000000093
210
0
220
0
230
1
100
AcDbArc
50
207.81520409891246
51
314.99999999999977
0
ARC
5
160
100
AcDbEntity
8
0
100
AcDbCircle
10
-42.079413349270006
20
-12.026928939789991
30
0
40
23.999999999999993
210
0
220
0
230
1
100
AcDbArc
50
152.1847959010876
51
207.81520409891246
0
ARC
5
161
100
AcDbEntity
8
0
100
AcDbCircle
10
-61.537471374684401
20
-1.7612590698007162
30
0
40
2.0000000000000058
210
0
220
-0
230
1
100
AcDbArc
50
45.000000000000284
51
152.1847959010878
0
LINE
5
162
100
AcDbEntity
8
0
100
AcDbLine
10
-60.123257812311309
20
-0.3470455074276102
30
0
11
-59.403529488340411
21
-1.0667738313985176
31
0
0
ARC
5
163
100
AcDbEntity
8
0
100
AcDbCircle
10
-56.221548973000957
20
2.1152066839409533
30
0
40
4.5000000000000009
210
0
220
0
230
1
100
AcDbArc
50
225.00000000000014
51
271.18693853959678
0
ARC
5
164
100
AcDbEntity
8
0
100
AcDbCircle
10
-56.086904697985005
20
-4.3833986217538925
30
0
40
1.9999999999999805
210
0
220
-0
230
1
100
AcDbArc
50
45.000000000000007
51
91.186938539597477
0
LINE
5
165
100
AcDbEntity
8
0
100
AcDbLine
10
-54.672691135611927
20
-2.969185059380814
30
0
11
-53.965233474660401
21
-3.6766427203323371
31
0
0
ARC
5
166
100
AcDbEntity
8
0
100
AcDbCircle
10
-55.379447037033486
20
-5.0908562827054364
30
0
40
1.9999999999999911
210
-0
220
0
230
1
100
AcDbArc
50
-27.542396876277799
51
45.000000000000291
0
ARC
5
167
100
AcDbEntity
8
0
100
AcDbCircle
10
-42.079413349270006
20
-12.026928939789991
30
0
40
12.999999999999988
210
0
220
0
230
1
100
AcDbArc
50
152.45760312372209
51
163.83718746954071
0
SPLINE
5
168
100
AcDbEntity
8
0
100
AcDbSpline
70
4
71
5
72
13
73
7
74
0
42
0.000000001
43
0.0000000001
44
0.0000000001
40
0.84433173897025804
40
0.84433173897025804
40
0.84433173897025804
40
0.84433173897025804
40
0.84433173897025804
40
0.84433173897025804
40
0.89999999999999991
40
1
40
1
40
1
40
1
40
1
40
1
41
1
41
1
41
1
41
1
41
1
41
1
41
1
10
-57.611741663799748
20
-9.1063031568766046
30
0
10
-57.428664839610917
20
-9.0539002726856648
30
0
10
-56.898853539733061
20
-8.9086312630715661
30
0
10
-56.319693877899731
20
-8.7668654255790539
30
0
10
-55.692636394759191
20
-8.6284997883291261
30
0
10
-55.018291120484868
20
-8.4934910461215551
30
0
10
-54.565582640213094
20
-8.4081478690549982
30
0
0
SPLINE
5
169
100
AcDbEntity
8
0
100
AcDbSpline
70
4
71
5
72
13
73
7
74
0
42
0.000000001
43
0.0000000001
44
0.0000000001
40
0
40
0
40
0
40
0
40
0
40
0
40
0.10000000000000001
40
0.16645254479150773
40
0.16645254479150773
40
0.16645254479150773
40
0.16645254479150773
40
0.16645254479150773
40
0.16645254479150773
41
1
41
1
41
1
41
1
41
1
41
1
41
1
10
-39.84694460548036
20
-24.833805346939485
30
0
10
-39.995588067553307
20
-25.272793097656098
30
0
10
-40.240714044337921
20
-25.971172388773283
30
0
10
-40.48202031323882
20
-26.615744353037122
30
0
10
-40.719454120923864
20
-27.205765866664663
30
0
10
-40.952884709451411
20
-27.739394973281417
30
0
10
-41.045428900313553
20
-27.943308271614058
30
0
0
ARC
5
170
100
AcDbEntity
8
0
100
AcDbCircle
10
-42.079413349270006
20
-12.026928939789991
30
0
40
13.000000000000004
210
-0
220
0
230
1
100
AcDbArc
50
279.88832506716511
51
297.54239687627796
0
ARC
5
171
100
AcDbEntity
8
0
100
AcDbCircle
10
-35.143340692185426
20
-25.326962627553492
30
0
40
2.0000000000000022
210
0
220
-0
230
1
100
AcDbArc
50
45
51
117.54239687627806
0
LINE
5
172
100
AcDbEntity
8
0
100
AcDbLine
10
-33.729127129812326
20
-23.912749065180392
30
0
11
-33.021669468860814
21
-24.620206726131912
31
0
0
ARC
5
173
100
AcDbEntity
8
0
100
AcDbCircle
10
-34.435883031233885
20
-26.034420288505
30
0
40
1.9999999999999778
210
0
220
0
230
1
100
AcDbArc
50
-1.1869385395970111
51
45.000000000000355
0
ARC
5
174
100
AcDbEntity
8
0
100
AcDbCircle
10
-27.93727772553904
20
-26.169064563520948
30
0
40
4.5000000000000009
210
0
220
0
230
1
100
AcDbArc
50
178.8130614604033
51
224.99999999999997
0
LINE
5
175
100
AcDbEntity
8
0
100
AcDbLine
10
-31.119258240878509
20
-29.351045078860412
30
0
11
-30.399529916907611
21
-30.070773402831314
31
0
0
ARC
5
176
100
AcDbEntity
8
0
100
AcDbCircle
10
-31.813743479280703
20
-31.484986965204406
30
0
40
1.9999999999999931
210
0
220
0
230
1
100
AcDbArc
50
-62.184795901087583
51
45
0
ARC
5
177
100
AcDbEntity
8
0
100
AcDbCircle
10
-42.079413349270006
20
-12.026928939789991
30
0
40
24.000000000000007
210
0
220
0
230
1
100
AcDbArc
50
242.18479590108765
51
297.81520409891249
0
ARC
5
178
100
AcDbEntity
8
0
100
AcDbCircle
10
-52.345083219259294
20
-31.48498696520441
30
0
40
1.999999999999996
210
0
220
0
230
1
100
AcDbArc
50
134.99999999999966
51
242.18479590108817
0
LINE
5
179
100
AcDbEntity
8
0
100
AcDbLine
10
-53.759296781632379
20
-30.070773402831307
30
0
11
-53.039568457661488
21
-29.351045078860416
31
0
0
ARC
5
180
100
AcDbEntity
8
0
100
AcDbCircle
10
-56.221548973000957
20
-26.169064563520955
30
0
40
4.5000000000000009
210
-0
220
0
230
1
100
AcDbArc
50
-44.99999999999995
51
1.1869385395966805
0
ARC
5
181
100
AcDbEntity
8
0
100
AcDbCircle
10
-49.722943667306069
20
-26.034420288505022
30
0
40
2.0000000000000115
210
0
220
0
230
1
100
AcDbArc
50
135.00000000000023
51
181.18693853959698
0
LINE
5
182
100
AcDbEntity
8
0
100
AcDbLine
10
-51.137157229679175
20
-24.620206726131926
30
0
11
-50.429699568727656
21
-23.9127490651804
31
0
0
ARC
5
183
100
AcDbEntity
8
0
100
AcDbCircle
10
-49.015486006354564
20
-25.326962627553485
30
0
40
1.9999999999999938
210
0
220
-0
230
1
100
AcDbArc
50
62.457603123721881
51
135.00000000000017
0
ARC
5
184
100
AcDbEntity
8
0
100
AcDbCircle
10
-42.079413349270006
20
-12.026928939789991
30
0
40
13
210
0
220
0
230
1
100
AcDbArc
50
242.45760312372215
51
253.83718746954068
0
SPLINE
5
185
100
AcDbEntity
8
0
100
AcDbSpline
70
4
71
5
72
13
73
7
74
0
42
0.000000001
43
0.0000000001
44
0.0000000001
40
0.84433173897025848
40
0.84433173897025848
40
0.84433173897025848
40
0.84433173897025848
40
0.84433173897025848
40
0.84433173897025848
40
0.89999999999999991
40
1
40
1
40
1
40
1
40
1
40
1
41
1
41
1
41
1
41
1
41
1
41
1
41
1
10
-45.000039132183396
20
-27.559257254319736
30
0
10
-45.052442016374329
20
-27.376180430130901
30
0
10
-45.197711025988426
20
-26.846369130253045
30
0
10
-45.33947686348094
20
-26.267209468419711
30
0
10
-45.477842500730866
20
-25.640151985279175
30
0
10
-45.612851242938433
20
-24.965806711004856
30
0
10
-45.698194420004995
20
-24.513098230733078
30
0
0
CIRCLE
5
186
100
AcDbEntity
8
0
100
AcDbCircle
10
-56.221548973000957
20
2.1152066839409533
30
0
40
1.6209999999999969
210
0
220
0
230
1
0
CIRCLE
5
187
100
AcDbEntity
8
0
100
AcDbCircle
10
-27.937277725539044
20
2.1152066839409533
30
0
40
1.6210000000000013
210
0
220
0
230
1
0
SPLINE
5
188
100
AcDbEntity
8
0
100
AcDbSpline
70
4
71
5
72
13
73
7
74
0
42
0.000000001
43
0.0000000001
44
0.0000000001
40
0
40
0
40
0
40
0
40
0
40
0
40
0.10000000000000001
40
0.16645254479150812
40
0.16645254479150812
40
0.16645254479150812
40
0.16645254479150812
40
0.16645254479150812
40
0.16645254479150812
41
1
41
1
41
1
41
1
41
1
41
1
41
1
10
-44.311882093059651
20
0.77994746735950304
30
0
10
-44.163238630986697
20
1.2189352180761137
30
0
10
-43.918112654202091
20
1.9173145091933042
30
0
10
-43.676806385301191
20
2.5618864734571396
30
0
10
-43.43937257761614
20
3.1519079870846873
30
0
10
-43.205941989088601
20
3.6855370937014369
30
0
10
-43.113397798226451
20
3.8894503920340782
30
0
0
ARC
5
189
100
AcDbEntity
8
0
100
AcDbCircle
10
-42.079413349270006
20
-12.026928939789991
30
0
40
13.000000000000004
210
0
220
0
230
1
100
AcDbArc
50
99.888325067165141
51
117.54239687627788
0
ARC
5
190
100
AcDbEntity
8
0
100
AcDbCircle
10
-49.015486006354571
20
1.273104747973488
30
0
40
1.9999999999999956
210
0
220
0
230
1
100
AcDbArc
50
224.99999999999997
51
297.54239687627825
0
LINE
5
191
100
AcDbEntity
8
0
100
AcDbLine
10
-50.429699568727663
20
-0.14110881439960365
30
0
11
-51.137157229679183
21
0.56634884655190731
31
0
0
ARC
5
192
100
AcDbEntity
8
0
100
AcDbCircle
10
-49.722943667306076
20
1.9805624089250089
30
0
40
2.0000000000000133
210
0
220
0
230
1
100
AcDbArc
50
178.8130614604033
51
224.99999999999989
0
ARC
5
193
100
AcDbEntity
8
0
100
AcDbCircle
10
-56.221548973000957
20
2.1152066839409533
30
0
40
4.5000000000000053
210
-0
220
0
230
1
100
AcDbArc
50
-1.1869385395967058
51
44.999999999999908
0
LINE
5
194
100
AcDbEntity
8
0
100
AcDbLine
10
-53.039568457661481
20
5.2971871992804189
30
0
11
-53.759296781632379
21
6.0169155232513027
31
0
0
ARC
5
195
100
AcDbEntity
8
0
100
AcDbCircle
10
-52.34508321925928
20
7.431129085624411
30
0
40
2.0000000000000107
210
0
220
0
230
1
100
AcDbArc
50
117.81520409891287
51
225.00000000000014
0
ARC
5
196
100
AcDbEntity
8
0
100
AcDbCircle
10
-42.079413349270006
20
-12.026928939789991
30
0
40
24
210
0
220
-0
230
1
100
AcDbArc
50
62.184795901087554
51
117.81520409891245
0
ARC
5
197
100
AcDbEntity
8
0
100
AcDbCircle
10
-31.813743479280703
20
7.4311290856244048
30
0
40
2.0000000000000009
210
-0
220
0
230
1
100
AcDbArc
50
-45.000000000000099
51
62.184795901088016
0
LINE
5
198
100
AcDbEntity
8
0
100
AcDbLine
10
-30.399529916907611
20
6.0169155232513063
30
0
11
-31.119258240878516
21
5.2971871992804154
31
0
0
ARC
5
199
100
AcDbEntity
8
0
100
AcDbCircle
10
-27.937277725539044
20
2.1152066839409533
30
0
40
4.5000000000000036
210
0
220
0
230
1
100
AcDbArc
50
135.00000000000011
51
181.18693853959667
0
ARC
5
200
100
AcDbEntity
8
0
100
AcDbCircle
10
-34.435883031233914
20
1.9805624089250249
30
0
40
2.0000000000000049
210
0
220
0
230
1
100
AcDbArc
50
-44.999999999999901
51
1.1869385395969876
0
LINE
5
201
100
AcDbEntity
8
0
100
AcDbLine
10
-33.021669468860814
20
0.5663488465519293
30
0
11
-33.729127129812341
21
-0.14110881439959755
31
0
0
ARC
5
202
100
AcDbEntity
8
0
100
AcDbCircle
10
-35.143340692185433
20
1.2731047479734996
30
0
40
2.000000000000004
210
0
220
0
230
1
100
AcDbArc
50
242.45760312372227
51
314.99999999999989
0
ARC
5
203
100
AcDbEntity
8
0
100
AcDbCircle
10
-42.079413349270006
20
-12.026928939789991
30
0
40
12.999999999999996
210
0
220
-0
230
1
100
AcDbArc
50
62.457603123722045
51
73.837187469540723
0
SPLINE
5
204
100
AcDbEntity
8
0
100
AcDbSpline
70
4
71
5
72
13
73
7
74
0
42
0.000000001
43
0.0000000001
44
0.0000000001
40
0.84433173897025782
40
0.84433173897025782
40
0.84433173897025782
40
0.84433173897025782
40
0.84433173897025782
40
0.84433173897025782
40
0.89999999999999991
40
1
40
1
40
1
40
1
40
1
40
1
41
1
41
1
41
1
41
1
41
1
41
1
41
1
10
-39.158787566356636
20
3.5053993747397598
30
0
10
-39.106384682165697
20
3.3223225505509282
30
0
10
-38.9611156725516
20
2.792511250673066
30
0
10
-38.819349835059086
20
2.2133515888397333
30
0
10
-38.680984197809153
20
1.5862941056991948
30
0
10
-38.545975455601578
20
0.9119488314248736
30
0
10
-38.460632278535023
20
0.45924035115309625
30
0
0
CIRCLE
5
205
100
AcDbEntity
8
0
100
AcDbCircle
10
-42.079413349270006
20
-12.026928939789991
30
0
40
10.499999999999998
210
0
220
0
230
1
0
CIRCLE
5
206
100
AcDbEntity
8
0
100
AcDbCircle
10
-11.549527711259231
20
30.067345599044174
30
0
40
1.6959680561173227
210
0
220
0
230
1
0
CIRCLE
5
207
100
AcDbEntity
8
0
100
AcDbCircle
10
7.3621767480816072
20
4.0830379958129752
30
0
40
1.6959680561173227
210
0
220
0
230
1
0
CIRCLE
5
208
100
AcDbEntity
8
0
100
AcDbCircle
10
7.3888742480743499
20
-28.054729419181559
30
0
40
1.6959680561173227
210
0
220
0
230
1
0
CIRCLE
5
209
100
AcDbEntity
8
0
100
AcDbCircle
10
-11.479632748863569
20
-54.070421815950368
30
0
40
1.6959680561173227
210
0
220
0
230
1
0
CIRCLE
5
210
100
AcDbEntity
8
0
100
AcDbCircle
10
-42.03621588686709
20
-64.026928939789997
30
0
40
1.6959680561173227
210
0
220
0
230
1
0
ELLIPSE
5
211
100
AcDbEntity
8
0
100
AcDbEllipse
10
-41.868986083491066
20
-47.000000700354583
30
0
11
9.7341404828668097
21
-9.1779762665443218e-18
31
0.0
40
0.36219521513709196
41
0
42
6.2831853071795862
0
CIRCLE
5
212
100
AcDbEntity
8
0
100
AcDbCircle
10
-27.93727772553904
20
-26.169064563520948
30
0
40
1.6210000000000013
210
0
220
0
230
1
0
ARC
5
213
100
AcDbEntity
8
0
100
AcDbCircle
10
-42.079413349270006
20
-12.026928939789991
30
0
40
48.500000000000007
210
0
220
0
230
1
100
AcDbArc
50
98.545221936793354
51
117.45477806320658
0
SPLINE
5
214
100
AcDbEntity
8
0
100
AcDbSpline
70
4
71
5
72
21
73
15
74
0
42
0.000000001
43
0.0000000001
44
0.0000000001
40
-1
40
-1
40
-1
40
-1
40
-1
40
-1
40
-0.89999999999999991
40
-0.79999999999999993
40
-0.69999999999999996
40
-0.59999999999999998
40
-0.5
40
-0.40000000000000002
40
-0.30000000000000004
40
-0.20000000000000001
40
-0.10000000000000001
40
0
40
0
40
0
40
0
40
0
40
0
41
1
41
1
41
1
41
1
41
1
41
1
41
1
41
1
41
1
41
1
41
1
41
1
41
1
41
1
41
1
10
-64.440259631065302
20
31.010758655641077
30
0
10
-65.011897053694369
20
31.299105106663283
30
0
10
-66.125650132253654
20
31.835864390389922
30
0
10
-67.70771732629342
20
32.521206351747828
30
0
10
-69.637076498492092
20
33.191426294838664
30
0
10
-71.728273132784878
20
33.595662882822673
30
0
10
-73.470213433402861
20
33.527466053573946
30
0
10
-74.834221105899815
20
32.94804584546813
30
0
10
-75.804324555205625
20
31.835797739097337
30
0
10
-76.395714587072604
20
30.211270092725819
30
0
10
-76.636803332480369
20
28.112895538303167
30
0
10
-76.572341372153801
20
26.086105749040279
30
0
10
-76.388432511898046
20
24.382640345562258
30
0
10
-76.206559089840042
20
23.166826529996797
30
0
10
-76.100805073499203
20
22.538876491973777
30
0
0
ARC
5
215
100
AcDbEntity
8
0
100
AcDbCircle
10
-42.079413349270006
20
-12.026928939789991
30
0
40
48.5
210
0
220
0
230
1
100
AcDbArc
50
134.54522193679335
51
153.45477806320659
0
SPLINE
5
216
100
AcDbEntity
8
0
100
AcDbSpline
70
4
71
5
72
21
73
15
74
0
42
0.000000001
43
0.0000000001
44
0.0000000001
40
-1
40
-1
40
-1
40
-1
40
-1
40
-1
40
-0.89999999999999991
40
-0.79999999999999993
40
-0.69999999999999996
40
-0.59999999999999998
40
-0.5
40
-0.40000000000000002
40
-0.30000000000000004
40
-0.20000000000000001
40
-0.10000000000000001
40
0
40
0
40
0
40
0
40
0
40
0
41
1
41
1
41
1
41
1
41
1
41
1
41
1
41
1
41
1
41
1
41
1
41
1
41
1
41
1
41
1
10
-85.46663606121335
20
9.6479160502953487
30
0
10
-86.098586242211212
20
9.5451931827625121
30
0
10
-87.315130601323744
20
9.3247929309174946
30
0
10
-88.997883745225124
20
8.9493304598263439
30
0
10
-90.952713502138764
20
8.3575009159647262
30
0
10
-92.882131422711211
20
7.4553606441094411
30
0
10
-94.251305638594062
20
6.3763014312027098
30
0
10
-95.014236372869505
20
5.1057970420466257
30
0
10
-95.145303515814049
20
3.6357569213242535
30
0
10
-94.668874709394345
20
1.9738761084881755
30
0
10
-93.630525984695396
20
0.13454702434984087
30
0
10
-92.387058015684929
20
-1.4672705695732036
30
0
10
-91.237000780388868
20
-2.7373041144877015
30
0
10
-90.375224660817523
20
-3.6140156380017907
30
0
10
-89.920568092860435
20
-4.059877239202363
30
0
0
ARC
5
217
100
AcDbEntity
8
0
100
AcDbCircle
10
-42.079413349270006
20
-12.026928939789991
30
0
40
48.5
210
0
220
0
230
1
100
AcDbArc
50
170.54522193679341
51
189.45477806320656
0
SPLINE
5
218
100
AcDbEntity
8
0
100
AcDbSpline
70
4
71
5
72
21
73
15
74
0
42
0.000000001
43
0.0000000001
44
0.0000000001
40
-1
40
-1
40
-1
40
-1
40
-1
40
-1
40
-0.89999999999999991
40
-0.79999999999999993
40
-0.69999999999999996
40
-0.59999999999999998
40
-0.5
40
-0.40000000000000002
40
-0.30000000000000004
40
-0.20000000000000001
40
-0.10000000000000001
40
0
40
0
40
0
40
0
40
0
40
0
41
1
41
1
41
1
41
1
41
1
41
1
41
1
41
1
41
1
41
1
41
1
41
1
41
1
41
1
41
1
10
-89.920568092860435
20
-19.993980640377607
30
0
10
-90.371447542276741
20
-20.448536182488432
30
0
10
-91.226104585572827
20
-21.341910564826865
30
0
10
-92.366789173027897
20
-22.634763565907292
30
0
10
-93.600410989723869
20
-24.262583826510181
30
0
10
-94.631078129419222
20
-26.126514036976044
30
0
10
-95.104508246632818
20
-27.804271690087123
30
0
10
-94.97494843328225
20
-29.280570766497583
30
0
10
-94.216916076104411
20
-30.546897540288999
30
0
10
-92.85464804226379
20
-31.611349534344271
30
0
10
-90.933475768134699
20
-32.489071954556834
30
0
10
-88.985964290669557
20
-33.054077476036539
30
0
10
-87.309041455181074
20
-33.405569515077062
30
0
10
-86.096531825051756
20
-33.60830474288057
30
0
10
-85.466636061213364
20
-33.701773929875316
30
0
0
ARC
5
219
100
AcDbEntity
8
0
100
AcDbCircle
10
-42.079413349270006
20
-12.026928939789991
30
0
40
48.500000000000021
210
0
220
0
230
1
100
AcDbArc
50
206.54522193679335
51
225.45477806320656
0
SPLINE
5
220
100
AcDbEntity
8
0
100
AcDbSpline
70
4
71
5
72
21
73
15
74
0
42
0.000000001
43
0.0000000001
44
0.0000000001
40
-1
40
-1
40
-1
40
-1
40
-1
40
-1
40
-0.89999999999999991
40
-0.79999999999999993
40
-0.69999999999999996
40
-0.59999999999999998
40
-0.5
40
-0.40000000000000002
40
-0.30000000000000004
40
-0.20000000000000001
40
-0.10000000000000001
40
0
40
0
40
0
40
0
40
0
40
0
41
1
41
1
41
1
41
1
41
1
41
1
41
1
41
1
41
1
41
1
41
1
41
1
41
1
41
1
41
1
10
-76.100805073499231
20
-46.592734371553739
30
0
10
-76.198393166489581
20
-47.225497820938742
30
0
10
-76.364712952161995
20
-48.45060768440969
30
0
10
-76.527626241216808
20
-50.167025311539426
30
0
10
-76.56883851299267
20
-52.209064276918902
30
0
10
-76.307075055540736
20
-54.322826438251511
30
0
10
-75.70392686059823
20
-55.958436132947014
30
0
10
-74.731363944718638
20
-57.076633826957433
30
0
10
-73.373774683247291
20
-57.655553467064571
30
0
10
-71.646007509084228
20
-57.715992159978271
30
0
10
-69.575834195975389
20
-57.296847784421267
30
0
10
-67.668162400978701
20
-56.609228328093593
30
0
10
-66.104901491977401
20
-55.90792084914245
30
0
10
-65.004795818347887
20
-55.359241814951616
30
0
10
-64.440259631065345
20
-55.064616535221056
30
0
0
ARC
5
221
100
AcDbEntity
8
0
100
AcDbCircle
10
-42.079413349270006
20
-12.026928939789991
30
0
40
48.500000000000007
210
0
220
0
230
1
100
AcDbArc
50
242.54522193679333
51
261.45477806320662
0
SPLINE
5
222
100
AcDbEntity
8
0
100
AcDbSpline
70
4
71
5
72
21
73
15
74
0
42
0.000000001
43
0.0000000001
44
0.0000000001
40
-1
40
-1
40
-1
40
-1
40
-1
40
-1
40
-0.89999999999999991
40
-0.79999999999999993
40
-0.69999999999999996
40
-0.59999999999999998
40
-0.5
40
-0.40000000000000002
40
-0.30000000000000004
40
-0.20000000000000001
40
-0.10000000000000001
40
0
40
0
40
0
40
0
40
0
40
0
41
1
41
1
41
1
41
1
41
1
41
1
41
1
41
1
41
1
41
1
41
1
41
1
41
1
41
1
41
1
10
-49.286026760056849
20
-59.988525276311861
30
0
10
-48.993048162001656
20
-60.557802502139751
30
0
10
-48.407502184934188
20
-61.646697518841592
30
0
10
-47.530416836396611
20
-63.131066577337329
30
0
10
-46.363477876187758
20
-64.807334769064582
30
0
10
-44.909268565312878
20
-66.363543579771175
30
0
10
-43.459924168418411
20
-67.332258005016442
30
0
10
-42.01584412767361
20
-67.665240803671111
30
0
10
-40.577250917034277
20
-67.335625684343611
30
0
10
-39.143932938444294
20
-66.368965549671074
30
0
10
-37.71549442937075
20
-64.813053283619212
30
0
10
-36.576328103151738
20
-63.13545611047013
30
0
10
-35.723841654583481
20
-61.649224733911069
30
0
10
-35.156342913553416
20
-60.558708179861711
30
0
10
-34.87279993848319
20
-59.988525276311861
30
0
0
ARC
5
223
100
AcDbEntity
8
0
100
AcDbCircle
10
-42.079413349270006
20
-12.026928939789991
30
0
40
48.5
210
-0
220
0
230
1
100
AcDbArc
50
278.54522193679338
51
297.45477806320662
0
SPLINE
5
224
100
AcDbEntity
8
0
100
AcDbSpline
70
4
71
5
72
21
73
15
74
0
42
0.000000001
43
0.0000000001
44
0.0000000001
40
-1
40
-1
40
-1
40
-1
40
-1
40
-1
40
-0.89999999999999991
40
-0.79999999999999993
40
-0.69999999999999996
40
-0.59999999999999998
40
-0.5
40
-0.40000000000000002
40
-0.30000000000000004
40
-0.20000000000000001
40
-0.10000000000000001
40
0
40
0
40
0
40
0
40
0
40
0
41
1
41
1
41
1
41
1
41
1
41
1
41
1
41
1
41
1
41
1
41
1
41
1
41
1
41
1
41
1
10
-19.718567067474709
20
-55.064616535221077
30
0
10
-19.146929644851713
20
-55.352962986244655
30
0
10
-18.033176566303123
20
-55.889722269973547
30
0
10
-16.451109372274903
20
-56.57506423133335
30
0
10
-14.521750200083073
20
-57.245284174424135
30
0
10
-12.430553565786717
20
-57.649520762405679
30
0
10
-10.688613265156018
20
-57.581323933154316
30
0
10
-9.324605592640733
20
-57.001903725047541
30
0
10
-8.3545021433153046
20
-55.889655618678148
30
0
10
-7.7631121114328323
20
-54.265127972309458
30
0
10
-7.5220233660188178
20
-52.166753417889012
30
0
10
-7.5864853263521068
20
-50.139963628625843
30
0
10
-7.7703941866213988
20
-48.436498225145755
30
0
10
-7.9522676086924635
20
-47.220684409578091
30
0
10
-8.0580216250408032
20
-46.592734371553775
30
0
0
ARC
5
225
100
AcDbEntity
8
0
100
AcDbCircle
10
-42.079413349270006
20
-12.026928939789991
30
0
40
48.500000000000021
210
-0
220
0
230
1
100
AcDbArc
50
314.54522193679333
51
333.45477806320662
0
SPLINE
5
226
100
AcDbEntity
8
0
100
AcDbSpline
70
4
71
5
72
21
73
15
74
0
42
0.000000001
43
0.0000000001
44
0.0000000001
40
-1
40
-1
40
-1
40
-1
40
-1
40
-1
40
-0.89999999999999991
40
-0.79999999999999993
40
-0.69999999999999996
40
-0.59999999999999998
40
-0.5
40
-0.40000000000000002
40
-0.30000000000000004
40
-0.20000000000000001
40
-0.10000000000000001
40
0
40
0
40
0
40
0
40
0
40
0
41
1
41
1
41
1
41
1
41
1
41
1
41
1
41
1
41
1
41
1
41
1
41
1
41
1
41
1
41
1
10
1.3078093626733356
20
-33.70177392987533
30
0
10
1.9397595436578579
20
-33.599051062344849
30
0
10
3.1563039027468158
20
-33.378650810503984
30
0
10
4.8390570466221625
20
-33.00318833941737
30
0
10
6.7938868035194258
20
-32.411358795558542
30
0
10
8.7233047240985027
20
-31.509218523702081
30
0
10
10.092478940009658
20
-30.43015931079044
30
0
10
10.855409674327847
20
-29.159654921626895
30
0
10
10.986476817319783
20
-27.689614800896297
30
0
10
10.510048010939174
20
-26.027733988053377
30
0
10
9.4716992862570013
20
-24.188404903912151
30
0
10
8.2282313172307529
20
-22.586587309991874
30
0
10
7.0781740819010519
20
-21.316553765083235
30
0
10
6.2163979622966359
20
-20.439842241574876
30
0
10
5.7617413943204099
20
-19.993980640377622
30
0
0
ARC
5
227
100
AcDbEntity
8
0
100
AcDbCircle
10
-42.079413349270006
20
-12.026928939789991
30
0
40
48.5
210
-0
220
0
230
1
100
AcDbArc
50
-9.4547780632066125
51
9.4547780632065876
0
SPLINE
5
228
100
AcDbEntity
8
0
100
AcDbSpline
70
4
71
5
72
21
73
15
74
0
42
0.000000001
43
0.0000000001
44
0.0000000001
40
-1
40
-1
40
-1
40
-1
40
-1
40
-1
40
-0.89999999999999991
40
-0.79999999999999993
40
-0.69999999999999996
40
-0.59999999999999998
40
-0.5
40
-0.40000000000000002
40
-0.30000000000000004
40
-0.20000000000000001
40
-0.10000000000000001
40
0
40
0
40
0
40
0
40
0
40
0
41
1
41
1
41
1
41
1
41
1
41
1
41
1
41
1
41
1
41
1
41
1
41
1
41
1
41
1
41
1
10
5.7617413943204099
20
-4.0598772392023985
30
0
10
6.2126208437263415
20
-3.6053216970916866
30
0
10
7.0672778870044537
20
-2.711947314753425
30
0
10
8.20796247444102
20
-1.4190943136730332
30
0
10
9.4415842911279846
20
0.20872594693015761
30
0
10
10.472251430832229
20
2.0726561573965134
30
0
10
10.945681548067201
20
3.7504138105077605
30
0
10
10.816121734742534
20
5.226712886917757
30
0
10
10.058089377588157
20
6.4930396607080585
30
0
10
8.6958213437635496
20
7.5574916547620896
30
0
10
6.7746490696389881
20
8.4352140749740041
30
0
10
4.8271375921653208
20
9.0002195964540963
30
0
10
3.1502147566623231
20
9.3517116354955867
30
0
10
1.9377051265194765
20
9.5544468633000292
30
0
10
1.3078093626733578
20
9.6479160502953221
30
0
0
ARC
5
229
100
AcDbEntity
8
0
100
AcDbCircle
10
-42.079413349270006
20
-12.026928939789991
30
0
40
48.500000000000007
210
0
220
-0
230
1
100
AcDbArc
50
26.54522193679335
51
45.454778063206575
0
SPLINE
5
230
100
AcDbEntity
8
0
100
AcDbSpline
70
4
71
5
72
21
73
15
74
0
42
0.000000001
43
0.0000000001
44
0.0000000001
40
-1
40
-1
40
-1
40
-1
40
-1
40
-1
40
-0.89999999999999991
40
-0.79999999999999993
40
-0.69999999999999996
40
-0.59999999999999998
40
-0.5
40
-0.40000000000000002
40
-0.30000000000000004
40
-0.20000000000000001
40
-0.10000000000000001
40
0
40
0
40
0
40
0
40
0
40
0
41
1
41
1
41
1
41
1
41
1
41
1
41
1
41
1
41
1
41
1
41
1
41
1
41
1
41
1
41
1
10
-8.0580216250407855
20
22.538876491973745
30
0
10
-7.9604335320590298
20
23.171639941351163
30
0
10
-7.7941137464019183
20
24.396749804808731
30
0
10
-7.6312004573643852
20
26.113167431923724
30
0
10
-7.5899881856003937
20
28.155206397293867
30
0
10
-7.8517516430496892
20
30.268968558630085
30
0
10
-8.4548998379739544
20
31.904578253341612
30
0
10
-9.4274627538232174
20
33.022775947376424
30
0
10
-10.785052015258319
20
33.601695587510932
30
0
10
-12.512819189389493
20
33.662134280447617
30
0
10
-14.582992502483092
20
33.242989904900668
30
0
10
-16.49066429749136
20
32.555370448563778
30
0
10
-18.053925206519757
20
31.854062969592899
30
0
10
-19.154030880176375
20
31.305383935382775
30
0
10
-19.718567067474673
20
31.010758655641062
30
0
0
ARC
5
231
100
AcDbEntity
8
0
100
AcDbCircle
10
-42.079413349270006
20
-12.026928939789991
30
0
40
48.500000000000007
210
0
220
-0
230
1
100
AcDbArc
50
62.545221936793361
51
81.454778063206561
0
SPLINE
5
232
100
AcDbEntity
8
0
100
AcDbSpline
70
4
71
5
72
21
73
15
74
0
42
0.000000001
43
0.0000000001
44
0.0000000001
40
-1
40
-1
40
-1
40
-1
40
-1
40
-1
40
-0.89999999999999991
40
-0.79999999999999993
40
-0.69999999999999996
40
-0.59999999999999998
40
-0.5
40
-0.40000000000000002
40
-0.30000000000000004
40
-0.20000000000000001
40
-0.10000000000000001
40
0
40
0
40
0
40
0
40
0
40
0
41
1
41
1
41
1
41
1
41
1
41
1
41
1
41
1
41
1
41
1
41
1
41
1
41
1
41
1
41
1
10
-34.872799938483169
20
35.934667396731875
30
0
10
-35.165778536550015
20
36.503944622554016
30
0
10
-35.751324513638004
20
37.592839639245646
30
0
10
-36.628409862197806
20
39.077208697730057
30
0
10
-37.795348822419818
20
40.753476889449971
30
0
10
-39.249558133287849
20
42.309685700158909
30
0
10
-40.698902530157795
20
43.278400125416319
30
0
10
-42.142982570867396
20
43.611382924090229
30
0
10
-43.58157578146924
20
43.281767804784664
30
0
10
-45.014893760029445
20
42.315107670130828
30
0
10
-46.443332269091151
20
40.759195404087208
30
0
10
-47.582498595323059
20
39.081598230930922
30
0
10
-48.434985043917152
20
37.59536685435598
30
0
10
-49.002483784972199
20
36.504850300290869
30
0
10
-49.286026760056821
20
35.934667396731882
30
0
0
CIRCLE
5
233
100
AcDbEntity
8
0
100
AcDbCircle
10
-58.85517800515197
20
-10.981500763798248
30
0
40
0.99999999999999645
210
0
220
0
230
1
0
CIRCLE
5
234
100
AcDbEntity
8
0
100
AcDbCircle
10
-41.033985173278261
20
4.7488357160919756
30
0
40
1.0000000000000053
210
0
220
0
230
1
0
CIRCLE
5
235
100
AcDbEntity
8
0
100
AcDbCircle
10
-25.303648693388045
20
-13.072357115781731
30
0
40
1.0000000000000009
210
0
220
0
230
1
0
CIRCLE
5
236
100
AcDbEntity
8
0
100
AcDbCircle
10
-43.124841525261751
20
-28.802693595671954
30
0
40
1.0000000000000053
210
0
220
0
230
1
0
ARC
5
237
100
AcDbEntity
8
0
100
AcDbCircle
10
-58.85517800515197
20
-10.981500763798248
30
0
40
2.250000000000016
210
0
220
-0
230
1
100
AcDbArc
50
56.451794593378906
51
292.45446260374899
0
ARC
5
238
100
AcDbEntity
8
0
100
AcDbCircle
10
-43.124841525261743
20
-28.802693595671958
30
0
40
2.2500000000000133
210
0
220
0
230
1
100
AcDbArc
50
-213.54820540662109
51
22.454462603748983
0
ARC
5
239
100
AcDbEntity
8
0
100
AcDbCircle
10
-25.303648693388041
20
-13.072357115781736
30
0
40
2.2500000000000169
210
0
220
0
230
1
100
AcDbArc
50
-123.54820540662109
51
112.45446260374908
0
ARC
5
240
100
AcDbEntity
8
0
100
AcDbCircle
10
-41.033985173278261
20
4.7488357160919747
30
0
40
2.2500000000000169
210
0
220
0
230
1
100
AcDbArc
50
-33.548205406621094
51
202.45446260374905
0
ENDSEC
0
SECTION
2
OBJECTS
0
DICTIONARY
5
C
100
AcDbDictionary
3
ACAD_GROUP
350
D
3
ACAD_MLINESTYLE
350
17
0
DICTIONARY
5
D
100
AcDbDictionary
0
DICTIONARY
5
1A
330
C
100
AcDbDictionary
0
DICTIONARY
5
17
100
AcDbDictionary
0
ENDSEC
0
EOF
